Hell in a Bucket 140bpm

C#7/B = x23424 E/G# = 4x2400

 


Verse Verse Full Chorus

Short Lead

Verse Verse Full Chorus

Bridge Half Chorus

Long Lead

Verse Verse Full Chorus


 

Intro Bang on Bm

|-----7------------------------|-12-10h11-------12-11h12p11-12b14-|
|-6/7-7-----7---/12-10----9h10-|----------12-12-------------------|
|---------9---7--------11------|----------------------------------|
|------------------------------|----------------------------------|
|------------------------------|----------------------------------|
|-ITD-Bm-----------------------|----------------------------------|

|-12---------9/10-7----------------|------7----------------|
|----12p10--------7-10b12r10b12r10-|-----------------------|
|----------------------------------|-9b11---10-9-7-------7-|
|----------------------------------|---------------9p7-----|
|----------------------------------|-------------------9---|
|----------------------------------|-----------------------|
 
|-----------------------|---------------------7-|
|-----------------------|--------10-9p8-------7-|
|-----------------------|-(10)r9------9-7h8---|
|-9-7-------------------|-----------------------|
|-----9-8p7-----------7-|-----------------------|
|-----------10-7h9h10---|-----------------------|
 
|--------------------------------|-------------------------------7-|
|---------10-----9-9---8---------|---------10----9-9---8---8-----7-|
|---10/11----11------9---7h8-----|---10/11----11-----9---9---7h8---|
|----------------------------9---|---------------------------------|
|--------------------------------|---------------------------------|
|--------------------------------|---------------------------------|
      
|----------------------------------------|-------------------|
|---10b12-10-7---------------------------|-------------------|
|--------------9b10r9-7------------------|---------------9-8-|
|-----------------------9-8-7------------|-----------------9-|
|-----------------------------9-8-7------|-9/11-11-10h11-----|
|-----------------------------------10-7-|-E---------------B-|
 

|---------------------------------------7-|-6/7-7-----------------------|

|-------12-12p10----10\9----9\8---7-----7-|-6/7-7-10p9p7----7-----------|

|-10/11----------11------10-----9---7b8---|--------------10---9p7-------|

|-----------------------------------------|-----------------------9p7-9-|

|-----------------------------------------|-----------------------------|

|-DATK-3-90-------------------------------|-----------------------------|

 

C#7/B Em B

1. Well I was drinking last night with a biker,

C#7/B Em B

and I showed him a picture of you.

 

[Verse: Play over C#7/B / Em / B]

|---------------------------|--------------------------|
|---------------------------|--------------------------|
|---------------------------|--------------------------|
|---3---2-----0h1-----------|---3-2-1------------------|
|-2---------------2---1/2-2-|-2-----------2-5p4p2---2--|
|---------------------------|---------2h4---------4----|

 

E A

I said, "Pal get to know her, you'll like her",

 

|-E-----A---------|
|-----------------|
|-------7p6-6/8---|
|-------7---7/9-9-|
|----0------------|

|-0---------------|

 

A                                              B
seemed like the least I could do. 
 
|-A---------B-|-------------------------|
|-------------|-------------------------|
|-6-6\5/6-7-8-|-----------4-----------4-|
|-7-7\6/7-8-9-|-----4-6p4---7-6p4-------|
|-------------|-5h6---------------5h6---|
|-------------|-------------------------|

When he's charging his chopper,

up and down your carpeted halls,

You will think me by contrast quite proper,

never mind how I stumble and fall.

E B

Never mind how I stumble and fall

 

|-----------------------------|
|--------------------------4--|
|---------4--1/2-2--2/3-3--4--|
|-----4-6----1/2-2--2/3-3--4--|
|-5h6-------------------------|

|-----------------------------|

Chorus 3x

|F# / / / | % | A / E / | B / / / ||

F#

You imagine me sipping champagne from your boot,

 

|-F#------------------------|--------------|
|---------------------------|--------------|
|---------------------------|--------------|
|-------------2---------2---|--------------|
|-2/4-----3h4-------3h4---4-|-0--5-4-0h2-0-|

|-----2-2-------2-2---------|--------------|

or dive:

|---------------------------------|----------|
|-------------------4---2-4-------|----------|

|-14\\2-2-2-1p2-2-2---------2-1-2-|--DATK----|

A E B A

For a taste of your elegant pride

|------------------------------------|-----------------------------------|
|-9-10--9-----8-----7-----7-10/12\10-|-9-10--9-----8-----7------------10-|
|---------9-----9-----8--------------|---------9-----9-----8--------9----|
|-----------9-----9-----9------------|-----------9-----9-----9-9/11------|
|------------------------------------|-----------------------------------|
|-E-----Em----B-----A----------------|-----------------------------------|
 
 
 

E Em B A

I may be going to hell in a bucket, babe,

E Em B

but at least I'm enjoying the ride,

At least I'm enjoying the ride,

at least I'm enjoying the ride.
|----------7--| alternate
|-9--8--7--7--|
|-9--9--8-----|
|-------------|
|-------------| 
 
 

Lead Short 4x DATK

||: Bm / / /| % :|| (like first half of intro)

|-----------------------------7----|------------12-12-10h11~--|
|---11/12---7-------------------10-|-10/12-10-----------------|
|---10/11---7---9b11b9-7-9b11------|----------11--------------|
|----------------------------------|--------------------------|
|----------------------------------|--------------------------|
|--ITD-----------------------------|--------------------------|
 
|-----------------|-7----------7--------|------------------------------------|
|-10p9p7-9p7-7b---|---------------------|------------------------------------|
|-10p9p7-----7b---|---10p9p7-----10p9p7-|----------------------------------7-|
|---------------9-|----------9----------|9--9-8-7---------------------9p7----|
|-----------------|---------------------|---------9-8-7---------7-8h9-----9--|
|-----------------|---------------------|---------------10-7-10--------------|

 

2. Sweet little soft core pretender,

somehow, babe, it got as hot as it gets,

With her black leather chrome spike suspenders,

Her chair and her whip and her pets.

We know you're the reincarnation

of the ravenous Catherine the Great,

And we know how you love your ovations,

From the Z‑Ray it seems you create.

The Z-Ray seems you create.

 

Chorus 2nd time

 

Bridge

|F#m / F#m(maj7) / |A / / / | NC E/G# / A /|

You analyze me, tend to despise me,

you laugh when I stumble and fall.

 

|-----------------------|-------------------|
|-----------------------|-------------------|
|-----------------------|-------------------|
|---4---4-3---3-2---2-2-|-------------------|
|-4---4-----4-----4-----|-/5-4-0-2-2-0---0--|

|-----------------------|--------------4----|

3x

|| E / Em / | B / A / :|| E / / B| B / / /|

There may come a day I will dance on your grave,

If unable to dance I will crawl across it,

Unable to dance I will crawl across it,

unable to dance I'll crawl. Yeah!

 


Long Lead = Intro Extended

|---17p16p14---------------------------------|-----------------------------------------|
|------------15b16---------------------------|---17b19r17-15----------------15-15------|
|------------------16-(18)r17-15-17-15-17b19-|---------------16p14----14h16-------16---|
|--------------------------------------------|---------------------16------------------|
|--------------------------------------------|-----------------------------------------|

|-Bm----ITD-2:58-----------------------------|-----------------------------------------|

 

|-----------------------------------------------------|---------------------------------------------------------|
|--------------------15b16----------------------------|----------------------------------------------------12---|
|----------11h12h13--------16p14----16----16-16p15p14-|-14-11-14-14-14p13p12p11-13-13-13p12p11\10/11------------|
|-11h12h13-----------------------16----16-------------|----------------------------------------------12h13------|
|-----------------------------------------------------|---------------------------------------------------------|
|-----------------------------------------------------|---------------------------------------------------------|

 

|-/9-9-9-------------------10p7--|----12-10/11----------11----12-13-14-|

|-/9-9-9-10p9p7----7-------10p7--|-12----------12-12p10----12----------|

|---------------10---9p7-9-------|-------------------------------------|

|--------------------------------|-------------------------------------|

|--------------------------------|-------------------------------------|

|--------------------------------|-------------------------------------|

 

|------14-17-16p14-------------------------------|
|---16-------------15b16----------16-------------|
|------------------------16p14-------16----------|
|------------------------------16-------14h15h16-|
|------------------------------------------------| 

|------------------------------------------------|

|---------------------------------------------------------------------|

|---------------------------------------------------------------------|

|-14h15h16-16p15p14--------16-----------------------------8h9-9-8h9-8-|

|--------------------16-16----16-16p15p14\12-12-14-12---------------9-|

|-----------------------------------------------------14--------------|

|---------------------------------------------------------------------|


 

*another version:

 

|----------------------7---------|
|-----------7--------7-----------|
|-------7-9---9-7-------10-9-7---|
|---7-9-----------9------------9-|
|-9------------------------------|

|--------------------------------|

 

3. You must really consider the circus,

for it just might be your kind of zoo,

I can't think of a place that's more perfect

for a person as perfect as you.

 

It's not like I'm leaving you lonely

cause I wouldn't know where to begin,

But I know that you'll think of me only

When the snakes come marching in.

When the snakes come marching in!

 

Chorus (without ending)

 

Ending Jam =

|| : E / Em / | B / A / :||

| E / / B| B ~~~~~| to close